Rendez-vous sur Arrakis, Le site perso d'un hacker libriste curieux crêpophile étourdi
Le 19/06/2019 à 15:43 dans /Journal/2016/

Riff exoconférence

Pour ceux qui ont vu l'exoconférence d'Alexandre Astier (les veinards!), vous avez pu apprécier un morceau musical qui a du punch. Pour les autres, vous le verrez dans le DVD, car la dernière était samedi dernier.

J'y étais...

Comme j'ai adoré le morceau, je l'ai rapidement retranscrit en tablature. Il n'y a que le riff du début, le solo suivant, c'est d'un autre niveau.

Le silence éternel des espaces infinis m'effrayent. Et la seule chose qu'on puisse lui opposer... C'est la poésie ou la musique.

-------------------------------
 -------------------------------
 -------------------------------
 ------------5h6p5-------------
 ---------7---------7p5-----5h7
 ---0--0-----------------0-----
 
 
 -------------------------------
 -------------------------------
 -------------------------------
 ------------5------------------
 ---------7--------5h7----5h7---
 ---0--0--------0-------0-------
 
 -------------------------------
 -------------------------------
 -------------------------------
 ------------5h6p5-------------
 ---------7---------7p5-----5h7
 ---0--0-----------------0-----
 
 
 -------------------------------
 -------------------------------
 -------------------------------
 ------5--7---------------------
 ------5--7---------------------
 -0-0--3--5---------------------
 



M. Astier, merci!


Comment combler le silence éternel de ces espaces infinis? from Thuban on Vimeo.